ISO-10303-21;
HEADER;
/* Generated by software containing ST-Developer
 * from STEP Tools, Inc. (www.steptools.com) 
 */
/* OPTION: using custom renumber hook */

FILE_DESCRIPTION(
/* description */ ('STEP AP242',
'CAx-IF Rec.Pracs.---Representation and Presentation of Product Manufa
cturing Information (PMI)---4.0---2014-10-13',
'CAx-IF Rec.Pracs.---3D Tessellated Geometry---0.4---2014-09-14','2;1'),

/* implementation_level */ '2;1');

FILE_NAME(
/* name */ '67646c6d4adeaf7533214eaa',
/* time_stamp */ '2024-12-19T18:56:46Z',
/* author */ (''),
/* organization */ (''),
/* preprocessor_version */ 'ST-DEVELOPER v20',
/* originating_system */ 'ONSHAPE BY PTC INC, 1.191',
/* authorisation */ '  ');

FILE_SCHEMA (('AP242_MANAGED_MODEL_BASED_3D_ENGINEERING_MIM_LF { 1 0 10303 442 1 1 4 }'));
ENDSEC;

DATA;
#10=SHAPE_REPRESENTATION_RELATIONSHIP('','',#157,#11);
#11=ADVANCED_BREP_SHAPE_REPRESENTATION('',(#155),#275);
#12=TOROIDAL_SURFACE('',#182,0.00605,0.002);
#13=TOROIDAL_SURFACE('',#183,0.00605,0.002);
#14=PLANE('',#162);
#15=PLANE('',#166);
#16=PLANE('',#171);
#17=PLANE('',#176);
#18=PLANE('',#180);
#19=PLANE('',#181);
#20=ORIENTED_EDGE('',*,*,#44,.F.);
#21=ORIENTED_EDGE('',*,*,#45,.T.);
#22=ORIENTED_EDGE('',*,*,#45,.F.);
#23=ORIENTED_EDGE('',*,*,#46,.T.);
#24=ORIENTED_EDGE('',*,*,#46,.F.);
#25=ORIENTED_EDGE('',*,*,#47,.T.);
#26=ORIENTED_EDGE('',*,*,#48,.T.);
#27=ORIENTED_EDGE('',*,*,#47,.F.);
#28=ORIENTED_EDGE('',*,*,#49,.T.);
#29=ORIENTED_EDGE('',*,*,#50,.T.);
#30=ORIENTED_EDGE('',*,*,#51,.T.);
#31=ORIENTED_EDGE('',*,*,#52,.T.);
#32=ORIENTED_EDGE('',*,*,#52,.F.);
#33=ORIENTED_EDGE('',*,*,#53,.T.);
#34=ORIENTED_EDGE('',*,*,#53,.F.);
#35=ORIENTED_EDGE('',*,*,#54,.T.);
#36=ORIENTED_EDGE('',*,*,#54,.F.);
#37=ORIENTED_EDGE('',*,*,#55,.T.);
#38=ORIENTED_EDGE('',*,*,#55,.F.);
#39=ORIENTED_EDGE('',*,*,#44,.T.);
#40=ORIENTED_EDGE('',*,*,#49,.F.);
#41=ORIENTED_EDGE('',*,*,#48,.F.);
#42=ORIENTED_EDGE('',*,*,#51,.F.);
#43=ORIENTED_EDGE('',*,*,#50,.F.);
#44=EDGE_CURVE('',#56,#56,#68,.T.);
#45=EDGE_CURVE('',#57,#57,#69,.T.);
#46=EDGE_CURVE('',#58,#58,#70,.T.);
#47=EDGE_CURVE('',#59,#59,#71,.T.);
#48=EDGE_CURVE('',#60,#60,#72,.T.);
#49=EDGE_CURVE('',#61,#61,#73,.F.);
#50=EDGE_CURVE('',#62,#62,#74,.F.);
#51=EDGE_CURVE('',#63,#63,#75,.T.);
#52=EDGE_CURVE('',#64,#64,#76,.T.);
#53=EDGE_CURVE('',#65,#65,#77,.T.);
#54=EDGE_CURVE('',#66,#66,#78,.T.);
#55=EDGE_CURVE('',#67,#67,#79,.T.);
#56=VERTEX_POINT('',#239);
#57=VERTEX_POINT('',#241);
#58=VERTEX_POINT('',#244);
#59=VERTEX_POINT('',#247);
#60=VERTEX_POINT('',#250);
#61=VERTEX_POINT('',#253);
#62=VERTEX_POINT('',#255);
#63=VERTEX_POINT('',#258);
#64=VERTEX_POINT('',#260);
#65=VERTEX_POINT('',#263);
#66=VERTEX_POINT('',#266);
#67=VERTEX_POINT('',#269);
#68=CIRCLE('',#160,0.00405);
#69=CIRCLE('',#161,0.00405);
#70=CIRCLE('',#163,0.01405);
#71=CIRCLE('',#165,0.01405);
#72=CIRCLE('',#167,0.00605);
#73=CIRCLE('',#169,0.00405);
#74=CIRCLE('',#170,0.00405);
#75=CIRCLE('',#172,0.00605);
#76=CIRCLE('',#173,0.01405);
#77=CIRCLE('',#175,0.01405);
#78=CIRCLE('',#177,0.00405);
#79=CIRCLE('',#179,0.00405);
#80=EDGE_LOOP('',(#20));
#81=EDGE_LOOP('',(#21));
#82=EDGE_LOOP('',(#22));
#83=EDGE_LOOP('',(#23));
#84=EDGE_LOOP('',(#24));
#85=EDGE_LOOP('',(#25));
#86=EDGE_LOOP('',(#26));
#87=EDGE_LOOP('',(#27));
#88=EDGE_LOOP('',(#28));
#89=EDGE_LOOP('',(#29));
#90=EDGE_LOOP('',(#30));
#91=EDGE_LOOP('',(#31));
#92=EDGE_LOOP('',(#32));
#93=EDGE_LOOP('',(#33));
#94=EDGE_LOOP('',(#34));
#95=EDGE_LOOP('',(#35));
#96=EDGE_LOOP('',(#36));
#97=EDGE_LOOP('',(#37));
#98=EDGE_LOOP('',(#38));
#99=EDGE_LOOP('',(#39));
#100=EDGE_LOOP('',(#40));
#101=EDGE_LOOP('',(#41));
#102=EDGE_LOOP('',(#42));
#103=EDGE_LOOP('',(#43));
#104=FACE_BOUND('',#80,.T.);
#105=FACE_BOUND('',#81,.T.);
#106=FACE_BOUND('',#82,.T.);
#107=FACE_BOUND('',#83,.T.);
#108=FACE_BOUND('',#84,.T.);
#109=FACE_BOUND('',#85,.T.);
#110=FACE_BOUND('',#86,.T.);
#111=FACE_BOUND('',#87,.T.);
#112=FACE_BOUND('',#88,.T.);
#113=FACE_BOUND('',#89,.T.);
#114=FACE_BOUND('',#90,.T.);
#115=FACE_BOUND('',#91,.T.);
#116=FACE_BOUND('',#92,.T.);
#117=FACE_BOUND('',#93,.T.);
#118=FACE_BOUND('',#94,.T.);
#119=FACE_BOUND('',#95,.T.);
#120=FACE_BOUND('',#96,.T.);
#121=FACE_BOUND('',#97,.T.);
#122=FACE_BOUND('',#98,.T.);
#123=FACE_BOUND('',#99,.T.);
#124=FACE_BOUND('',#100,.T.);
#125=FACE_BOUND('',#101,.T.);
#126=FACE_BOUND('',#102,.T.);
#127=FACE_BOUND('',#103,.T.);
#128=CYLINDRICAL_SURFACE('',#159,0.00405);
#129=CYLINDRICAL_SURFACE('',#164,0.01405);
#130=CYLINDRICAL_SURFACE('',#168,0.00405);
#131=CYLINDRICAL_SURFACE('',#174,0.01405);
#132=CYLINDRICAL_SURFACE('',#178,0.00405);
#133=ADVANCED_FACE('',(#104,#105),#128,.T.);
#134=ADVANCED_FACE('',(#106,#107),#14,.F.);
#135=ADVANCED_FACE('',(#108,#109),#129,.T.);
#136=ADVANCED_FACE('',(#110,#111),#15,.F.);
#137=ADVANCED_FACE('',(#112,#113),#130,.T.);
#138=ADVANCED_FACE('',(#114,#115),#16,.F.);
#139=ADVANCED_FACE('',(#116,#117),#131,.T.);
#140=ADVANCED_FACE('',(#118,#119),#17,.F.);
#141=ADVANCED_FACE('',(#120,#121),#132,.T.);
#142=ADVANCED_FACE('',(#122),#18,.F.);
#143=ADVANCED_FACE('',(#123),#19,.F.);
#144=ADVANCED_FACE('',(#124,#125),#12,.F.);
#145=ADVANCED_FACE('',(#126,#127),#13,.F.);
#146=CLOSED_SHELL('',(#133,#134,#135,#136,#137,#138,#139,#140,#141,#142,
#143,#144,#145));
#147=STYLED_ITEM('',(#148),#155);
#148=PRESENTATION_STYLE_ASSIGNMENT((#149));
#149=SURFACE_STYLE_USAGE(.BOTH.,#150);
#150=SURFACE_SIDE_STYLE('',(#151));
#151=SURFACE_STYLE_FILL_AREA(#152);
#152=FILL_AREA_STYLE('',(#153));
#153=FILL_AREA_STYLE_COLOUR('',#154);
#154=COLOUR_RGB('',0.647058823529412,0.647058823529412,0.647058823529412);
#155=MANIFOLD_SOLID_BREP('tige roulement',#146);
#156=SHAPE_DEFINITION_REPRESENTATION(#280,#157);
#157=SHAPE_REPRESENTATION('tige roulement',(#158),#275);
#158=AXIS2_PLACEMENT_3D('',#236,#184,#185);
#159=AXIS2_PLACEMENT_3D('',#237,#186,#187);
#160=AXIS2_PLACEMENT_3D('',#238,#188,#189);
#161=AXIS2_PLACEMENT_3D('',#240,#190,#191);
#162=AXIS2_PLACEMENT_3D('',#242,#192,#193);
#163=AXIS2_PLACEMENT_3D('',#243,#194,#195);
#164=AXIS2_PLACEMENT_3D('',#245,#196,#197);
#165=AXIS2_PLACEMENT_3D('',#246,#198,#199);
#166=AXIS2_PLACEMENT_3D('',#248,#200,#201);
#167=AXIS2_PLACEMENT_3D('',#249,#202,#203);
#168=AXIS2_PLACEMENT_3D('',#251,#204,#205);
#169=AXIS2_PLACEMENT_3D('',#252,#206,#207);
#170=AXIS2_PLACEMENT_3D('',#254,#208,#209);
#171=AXIS2_PLACEMENT_3D('',#256,#210,#211);
#172=AXIS2_PLACEMENT_3D('',#257,#212,#213);
#173=AXIS2_PLACEMENT_3D('',#259,#214,#215);
#174=AXIS2_PLACEMENT_3D('',#261,#216,#217);
#175=AXIS2_PLACEMENT_3D('',#262,#218,#219);
#176=AXIS2_PLACEMENT_3D('',#264,#220,#221);
#177=AXIS2_PLACEMENT_3D('',#265,#222,#223);
#178=AXIS2_PLACEMENT_3D('',#267,#224,#225);
#179=AXIS2_PLACEMENT_3D('',#268,#226,#227);
#180=AXIS2_PLACEMENT_3D('',#270,#228,#229);
#181=AXIS2_PLACEMENT_3D('',#271,#230,#231);
#182=AXIS2_PLACEMENT_3D('',#272,#232,#233);
#183=AXIS2_PLACEMENT_3D('',#273,#234,#235);
#184=DIRECTION('',(0.,0.,1.));
#185=DIRECTION('',(1.,0.,0.));
#186=DIRECTION('',(0.,0.,1.));
#187=DIRECTION('',(1.,0.,0.));
#188=DIRECTION('',(0.,0.,1.));
#189=DIRECTION('',(1.,0.,0.));
#190=DIRECTION('',(0.,0.,1.));
#191=DIRECTION('',(1.,0.,0.));
#192=DIRECTION('',(0.,0.,-1.));
#193=DIRECTION('',(-1.,0.,0.));
#194=DIRECTION('',(0.,0.,1.));
#195=DIRECTION('',(1.,0.,0.));
#196=DIRECTION('',(0.,0.,1.));
#197=DIRECTION('',(1.,0.,0.));
#198=DIRECTION('',(0.,0.,1.));
#199=DIRECTION('',(1.,0.,0.));
#200=DIRECTION('',(0.,0.,1.));
#201=DIRECTION('',(1.,0.,0.));
#202=DIRECTION('',(0.,0.,1.));
#203=DIRECTION('',(1.,0.,0.));
#204=DIRECTION('',(0.,0.,1.));
#205=DIRECTION('',(1.,0.,0.));
#206=DIRECTION('',(0.,0.,1.));
#207=DIRECTION('',(1.,0.,0.));
#208=DIRECTION('',(0.,0.,-1.));
#209=DIRECTION('',(-1.,0.,0.));
#210=DIRECTION('',(0.,0.,-1.));
#211=DIRECTION('',(-1.,0.,0.));
#212=DIRECTION('',(0.,0.,-1.));
#213=DIRECTION('',(-1.,0.,0.));
#214=DIRECTION('',(0.,0.,1.));
#215=DIRECTION('',(1.,0.,0.));
#216=DIRECTION('',(0.,0.,1.));
#217=DIRECTION('',(1.,0.,0.));
#218=DIRECTION('',(0.,0.,1.));
#219=DIRECTION('',(1.,0.,0.));
#220=DIRECTION('',(0.,0.,1.));
#221=DIRECTION('',(1.,0.,0.));
#222=DIRECTION('',(0.,0.,1.));
#223=DIRECTION('',(1.,0.,0.));
#224=DIRECTION('',(0.,0.,1.));
#225=DIRECTION('',(1.,0.,0.));
#226=DIRECTION('',(0.,0.,1.));
#227=DIRECTION('',(1.,0.,0.));
#228=DIRECTION('',(0.,0.,1.));
#229=DIRECTION('',(1.,0.,0.));
#230=DIRECTION('',(0.,0.,-1.));
#231=DIRECTION('',(-1.,0.,0.));
#232=DIRECTION('',(0.,0.,1.));
#233=DIRECTION('',(1.,0.,0.));
#234=DIRECTION('',(0.,0.,-1.));
#235=DIRECTION('',(-1.,0.,0.));
#236=CARTESIAN_POINT('',(0.,0.,0.));
#237=CARTESIAN_POINT('',(0.,0.,0.037));
#238=CARTESIAN_POINT('',(0.,0.,0.074));
#239=CARTESIAN_POINT('',(0.00405,0.,0.074));
#240=CARTESIAN_POINT('',(0.,0.,0.056));
#241=CARTESIAN_POINT('',(0.00405,0.,0.056));
#242=CARTESIAN_POINT('',(0.,-0.00905,0.056));
#243=CARTESIAN_POINT('',(0.,0.,0.056));
#244=CARTESIAN_POINT('',(0.01405,0.,0.056));
#245=CARTESIAN_POINT('',(0.,0.,0.037));
#246=CARTESIAN_POINT('',(0.,0.,0.05));
#247=CARTESIAN_POINT('',(0.01405,0.,0.05));
#248=CARTESIAN_POINT('',(0.,-0.00905,0.05));
#249=CARTESIAN_POINT('',(0.,0.,0.05));
#250=CARTESIAN_POINT('',(0.00605,0.,0.05));
#251=CARTESIAN_POINT('',(0.,0.,0.037));
#252=CARTESIAN_POINT('',(0.,0.,0.048));
#253=CARTESIAN_POINT('',(0.00405,0.,0.048));
#254=CARTESIAN_POINT('',(0.,0.,0.025));
#255=CARTESIAN_POINT('',(-0.00405,0.,0.025));
#256=CARTESIAN_POINT('',(0.,-0.00905,0.023));
#257=CARTESIAN_POINT('',(0.,0.,0.023));
#258=CARTESIAN_POINT('',(-0.00605,0.,0.023));
#259=CARTESIAN_POINT('',(0.,0.,0.023));
#260=CARTESIAN_POINT('',(0.01405,0.,0.023));
#261=CARTESIAN_POINT('',(0.,0.,0.037));
#262=CARTESIAN_POINT('',(0.,0.,0.018));
#263=CARTESIAN_POINT('',(0.01405,0.,0.018));
#264=CARTESIAN_POINT('',(0.,-0.00905,0.018));
#265=CARTESIAN_POINT('',(0.,0.,0.018));
#266=CARTESIAN_POINT('',(0.00405,0.,0.018));
#267=CARTESIAN_POINT('',(0.,0.,0.037));
#268=CARTESIAN_POINT('',(0.,0.,0.));
#269=CARTESIAN_POINT('',(0.00405,0.,0.));
#270=CARTESIAN_POINT('',(0.,-0.002025,0.));
#271=CARTESIAN_POINT('',(0.,-0.002025,0.074));
#272=CARTESIAN_POINT('',(0.,0.,0.048));
#273=CARTESIAN_POINT('',(0.,0.,0.025));
#274=MECHANICAL_DESIGN_GEOMETRIC_PRESENTATION_REPRESENTATION('',(#147),
#275);
#275=(
GEOMETRIC_REPRESENTATION_CONTEXT(3)
GLOBAL_UNCERTAINTY_ASSIGNED_CONTEXT((#276))
GLOBAL_UNIT_ASSIGNED_CONTEXT((#279,#278,#277))
REPRESENTATION_CONTEXT('tige roulement','TOP_LEVEL_ASSEMBLY_PART')
);
#276=UNCERTAINTY_MEASURE_WITH_UNIT(LENGTH_MEASURE(1.E-8),#279,
'DISTANCE_ACCURACY_VALUE','Maximum Tolerance applied to model');
#277=(
NAMED_UNIT(*)
SI_UNIT($,.STERADIAN.)
SOLID_ANGLE_UNIT()
);
#278=(
NAMED_UNIT(*)
PLANE_ANGLE_UNIT()
SI_UNIT($,.RADIAN.)
);
#279=(
LENGTH_UNIT()
NAMED_UNIT(*)
SI_UNIT($,.METRE.)
);
#280=PRODUCT_DEFINITION_SHAPE('','',#281);
#281=PRODUCT_DEFINITION('','',#283,#282);
#282=PRODUCT_DEFINITION_CONTEXT('',#289,'design');
#283=PRODUCT_DEFINITION_FORMATION_WITH_SPECIFIED_SOURCE('','',#285,
 .NOT_KNOWN.);
#284=PRODUCT_RELATED_PRODUCT_CATEGORY('','',(#285));
#285=PRODUCT('tige roulement','tige roulement','tige roulement',(#287));
#286=PRODUCT_CATEGORY('','');
#287=PRODUCT_CONTEXT('',#289,'mechanical');
#288=APPLICATION_PROTOCOL_DEFINITION('international standard',
'ap242_managed_model_based_3d_engineering',2011,#289);
#289=APPLICATION_CONTEXT('managed model based 3d engineering');
ENDSEC;
END-ISO-10303-21;
